  0
SECTION
  2
HEADER
  9
$ACADVER
  1
AC1015
  9
$ACADMAINTVER
 70
     6
  9
$DWGCODEPAGE
  3
ANSI_1254
  9
$INSBASE
 10
0.0
 20
0.0
 30
0.0
  9
$EXTMIN
 10
0.0
 20
0.0
 30
0.0
  9
$EXTMAX
 10
279.4
 20
215.9
 30
0.0
  9
$LIMMIN
 10
0.0
 20
0.0
  9
$LIMMAX
 10
279.4
 20
215.9
  9
$ORTHOMODE
 70
     0
  9
$REGENMODE
 70
     1
  9
$FILLMODE
 70
     1
  9
$QTEXTMODE
 70
     0
  9
$MIRRTEXT
 70
     1
  9
$LTSCALE
 40
1.0
  9
$ATTMODE
 70
     1
  9
$TEXTSIZE
 40
3.5
  9
$TRACEWID
 40
1.0
  9
$TEXTSTYLE
  7
Standard
  9
$CLAYER
  8
0
  9
$CELTYPE
  6
ByLayer
  9
$CECOLOR
 62
   256
  9
$CELTSCALE
 40
1.0
  9
$DISPSILH
 70
     0
  9
$DIMSCALE
 40
1.0
  9
$DIMASZ
 40
3.5
  9
$DIMEXO
 40
1.0
  9
$DIMDLI
 40
3.75
  9
$DIMRND
 40
0.0
  9
$DIMDLE
 40
0.0
  9
$DIMEXE
 40
1.0
  9
$DIMTP
 40
0.0
  9
$DIMTM
 40
0.0
  9
$DIMTXT
 40
3.5
  9
$DIMCEN
 40
2.5
  9
$DIMTSZ
 40
0.0
  9
$DIMTOL
 70
     0
  9
$DIMLIM
 70
     0
  9
$DIMTIH
 70
     1
  9
$DIMTOH
 70
     1
  9
$DIMSE1
 70
     0
  9
$DIMSE2
 70
     0
  9
$DIMTAD
 70
     1
  9
$DIMZIN
 70
     0
  9
$DIMBLK
  1

  9
$DIMASO
 70
     1
  9
$DIMSHO
 70
     1
  9
$DIMPOST
  1

  9
$DIMAPOST
  1

  9
$DIMALT
 70
     0
  9
$DIMALTD
 70
     3
  9
$DIMALTF
 40
0.0393700787
  9
$DIMLFAC
 40
1.0
  9
$DIMTOFL
 70
     1
  9
$DIMTVP
 40
0.0
  9
$DIMTIX
 70
     0
  9
$DIMSOXD
 70
     0
  9
$DIMSAH
 70
     0
  9
$DIMBLK1
  1

  9
$DIMBLK2
  1

  9
$DIMSTYLE
  2
ISO-25
  9
$DIMCLRD
 70
     0
  9
$DIMCLRE
 70
     0
  9
$DIMCLRT
 70
     0
  9
$DIMTFAC
 40
1.0
  9
$DIMGAP
 40
1.524
  9
$DIMJUST
 70
     0
  9
$DIMSD1
 70
     0
  9
$DIMSD2
 70
     0
  9
$DIMTOLJ
 70
     0
  9
$DIMTZIN
 70
     0
  9
$DIMALTZ
 70
     0
  9
$DIMALTTZ
 70
     0
  9
$DIMUPT
 70
     0
  9
$DIMDEC
 70
     2
  9
$DIMTDEC
 70
     2
  9
$DIMALTU
 70
     2
  9
$DIMALTTD
 70
     3
  9
$DIMTXSTY
  7
Standard
  9
$DIMAUNIT
 70
     0
  9
$DIMADEC
 70
     2
  9
$DIMALTRND
 40
0.0
  9
$DIMAZIN
 70
     0
  9
$DIMDSEP
 70
    44
  9
$DIMATFIT
 70
     3
  9
$DIMFRAC
 70
     0
  9
$DIMLDRBLK
  1

  9
$DIMLUNIT
 70
     2
  9
$DIMLWD
 70
    -2
  9
$DIMLWE
 70
    -2
  9
$DIMTMOVE
 70
     0
  9
$LUNITS
 70
     2
  9
$LUPREC
 70
     2
  9
$SKETCHINC
 40
1.0
  9
$FILLETRAD
 40
10.0
  9
$AUNITS
 70
     0
  9
$AUPREC
 70
     2
  9
$MENU
  1
.
  9
$ELEVATION
 40
0.0
  9
$PELEVATION
 40
0.0
  9
$THICKNESS
 40
0.0
  9
$LIMCHECK
 70
     0
  9
$CHAMFERA
 40
0.0
  9
$CHAMFERB
 40
0.0
  9
$CHAMFERC
 40
0.0
  9
$CHAMFERD
 40
0.0
  9
$SKPOLY
 70
     0
  9
$TDCREATE
 40
2458985.682916308
  9
$TDUCREATE
 40
2458985.557916308
  9
$TDUPDATE
 40
2458985.682916678
  9
$TDUUPDATE
 40
2458985.557916678
  9
$TDINDWG
 40
0.0000000116
  9
$TDUSRTIMER
 40
0.0000000116
  9
$USRTIMER
 70
     1
  9
$ANGBASE
 50
0.0
  9
$ANGDIR
 70
     0
  9
$PDMODE
 70
     0
  9
$PDSIZE
 40
-1.0
  9
$PLINEWID
 40
0.0
  9
$SPLFRAME
 70
     0
  9
$SPLINETYPE
 70
     6
  9
$SPLINESEGS
 70
     8
  9
$HANDSEED
  5
CB
  9
$SURFTAB1
 70
     6
  9
$SURFTAB2
 70
     6
  9
$SURFTYPE
 70
     6
  9
$SURFU
 70
     6
  9
$SURFV
 70
     6
  9
$UCSBASE
  2

  9
$UCSNAME
  2

  9
$UCSORG
 10
0.0
 20
0.0
 30
0.0
  9
$UCSXDIR
 10
1.0
 20
0.0
 30
0.0
  9
$UCSYDIR
 10
0.0
 20
1.0
 30
0.0
  9
$UCSORTHOREF
  2

  9
$UCSORTHOVIEW
 70
     0
  9
$UCSORGTOP
 10
0.0
 20
0.0
 30
0.0
  9
$UCSORGBOTTOM
 10
0.0
 20
0.0
 30
0.0
  9
$UCSORGLEFT
 10
0.0
 20
0.0
 30
0.0
  9
$UCSORGRIGHT
 10
0.0
 20
0.0
 30
0.0
  9
$UCSORGFRONT
 10
0.0
 20
0.0
 30
0.0
  9
$UCSORGBACK
 10
0.0
 20
0.0
 30
0.0
  9
$PUCSBASE
  2

  9
$PUCSNAME
  2

  9
$PUCSORG
 10
0.0
 20
0.0
 30
0.0
  9
$PUCSXDIR
 10
1.0
 20
0.0
 30
0.0
  9
$PUCSYDIR
 10
0.0
 20
1.0
 30
0.0
  9
$PUCSORTHOREF
  2

  9
$PUCSORTHOVIEW
 70
     0
  9
$PUCSORGTOP
 10
0.0
 20
0.0
 30
0.0
  9
$PUCSORGBOTTOM
 10
0.0
 20
0.0
 30
0.0
  9
$PUCSORGLEFT
 10
0.0
 20
0.0
 30
0.0
  9
$PUCSORGRIGHT
 10
0.0
 20
0.0
 30
0.0
  9
$PUCSORGFRONT
 10
0.0
 20
0.0
 30
0.0
  9
$PUCSORGBACK
 10
0.0
 20
0.0
 30
0.0
  9
$USERI1
 70
     0
  9
$USERI2
 70
     0
  9
$USERI3
 70
     0
  9
$USERI4
 70
     0
  9
$USERI5
 70
     0
  9
$USERR1
 40
0.0
  9
$USERR2
 40
0.0
  9
$USERR3
 40
0.0
  9
$USERR4
 40
0.0
  9
$USERR5
 40
0.0
  9
$WORLDVIEW
 70
     1
  9
$SHADEDGE
 70
     3
  9
$SHADEDIF
 70
    70
  9
$TILEMODE
 70
     1
  9
$MAXACTVP
 70
    64
  9
$PINSBASE
 10
0.0
 20
0.0
 30
0.0
  9
$PLIMCHECK
 70
     0
  9
$PEXTMIN
 10
1.0000000000E+20
 20
1.0000000000E+20
 30
1.0000000000E+20
  9
$PEXTMAX
 10
-1.0000000000E+20
 20
-1.0000000000E+20
 30
-1.0000000000E+20
  9
$PLIMMIN
 10
0.0
 20
0.0
  9
$PLIMMAX
 10
420.0
 20
297.0
  9
$UNITMODE
 70
     0
  9
$VISRETAIN
 70
     1
  9
$PLINEGEN
 70
     0
  9
$PSLTSCALE
 70
     1
  9
$TREEDEPTH
 70
  3020
  9
$CMLSTYLE
  2
Standard
  9
$CMLJUST
 70
     0
  9
$CMLSCALE
 40
20.0
  9
$PROXYGRAPHICS
 70
     1
  9
$MEASUREMENT
 70
     1
  9
$CELWEIGHT
370
    -1
  9
$ENDCAPS
280
     0
  9
$JOINSTYLE
280
     0
  9
$LWDISPLAY
290
     1
  9
$INSUNITS
 70
     4
  9
$HYPERLINKBASE
  1

  9
$STYLESHEET
  1

  9
$XEDIT
290
     1
  9
$CEPSNTYPE
380
     0
  9
$PSTYLEMODE
290
     1
  9
$FINGERPRINTGUID
  2
{481de9cd-fb46-49dd-a8f5-2245fbe073c4}
  9
$VERSIONGUID
  2
{FAEB1C32-E019-11D5-929B-00C0DF256EC4}
  9
$EXTNAMES
290
     1
  9
$PSVPSCALE
 40
0.0
  9
$OLESTARTUP
290
     0
  0
ENDSEC
  0
SECTION
  2
CLASSES
  0
CLASS
  1
ACDBDICTIONARYWDFLT
  2
AcDbDictionaryWithDefault
  3
ObjectDBX Classes
 90
        0
280
     0
281
     0
  0
CLASS
  1
VISUALSTYLE
  2
AcDbVisualStyle
  3
ObjectDBX Classes
 90
     4095
280
     0
281
     0
  0
CLASS
  1
MATERIAL
  2
AcDbMaterial
  3
ObjectDBX Classes
 90
     1153
280
     0
281
     0
  0
CLASS
  1
SCALE
  2
AcDbScale
  3
ObjectDBX Classes
 90
     1153
280
     0
281
     0
  0
CLASS
  1
TABLESTYLE
  2
AcDbTableStyle
  3
ObjectDBX Classes
 90
     4095
280
     0
281
     0
  0
CLASS
  1
MLEADERSTYLE
  2
AcDbMLeaderStyle
  3
ACDB_MLEADERSTYLE_CLASS
 90
     4095
280
     0
281
     0
  0
CLASS
  1
SUN
  2
AcDbSun
  3
SCENEOE
 90
     1153
280
     0
281
     0
  0
CLASS
  1
ACDBPLACEHOLDER
  2
AcDbPlaceHolder
  3
ObjectDBX Classes
 90
        0
280
     0
281
     0
  0
CLASS
  1
LAYOUT
  2
AcDbLayout
  3
ObjectDBX Classes
 90
        0
280
     0
281
     0
  0
ENDSEC
  0
SECTION
  2
TABLES
  0
TABLE
  2
VPORT
  5
8
330
0
100
AcDbSymbolTable
 70
     1
  0
VPORT
  5
29
330
8
100
AcDbSymbolTableRecord
100
AcDbViewportTableRecord
  2
*Active
 70
     0
 10
0.0
 20
0.0
 11
1.0
 21
1.0
 12
139.7
 22
107.95
 13
0.0
 23
0.0
 14
10.0
 24
10.0
 15
10.0
 25
10.0
 16
0.0
 26
0.0
 36
1.0
 17
0.0
 27
0.0
 37
0.0
 40
215.9
 41
1.2941176471
 42
50.0
 43
0.0
 44
0.0
 50
0.0
 51
0.0
 71
     0
 72
  2000
 73
     1
 74
     3
 75
     0
 76
     0
 77
     0
 78
     0
281
     0
 65
     1
110
0.0
120
0.0
130
0.0
111
1.0
121
0.0
131
0.0
112
0.0
122
1.0
132
0.0
 79
     0
146
0.0
  0
ENDTAB
  0
TABLE
  2
LTYPE
  5
5
330
0
100
AcDbSymbolTable
 70
     6
  0
LTYPE
  5
14
330
5
100
AcDbSymbolTableRecord
100
AcDbLinetypeTableRecord
  2
ByBlock
 70
     0
  3

 72
    65
 73
     0
 40
0.0
  0
LTYPE
  5
15
330
5
100
AcDbSymbolTableRecord
100
AcDbLinetypeTableRecord
  2
ByLayer
 70
     0
  3

 72
    65
 73
     0
 40
0.0
  0
LTYPE
  5
16
330
5
100
AcDbSymbolTableRecord
100
AcDbLinetypeTableRecord
  2
Continuous
 70
     0
  3
Solid line
 72
    65
 73
     0
 40
0.0
  0
LTYPE
  5
6E
330
5
100
AcDbSymbolTableRecord
100
AcDbLinetypeTableRecord
  2
HIDDEN
 70
     0
  3
Hidden __ __ __ __ __ __ __ __ __ __ __ __ __ __
 72
    65
 73
     2
 40
1.905
 49
1.27
 74
     0
 49
-0.635
 74
     0
  0
LTYPE
  5
6F
330
5
100
AcDbSymbolTableRecord
100
AcDbLinetypeTableRecord
  2
PHANTOM
 70
     0
  3
Phantom ______  __  __  ______  __  __  ______
 72
    65
 73
     6
 40
12.7
 49
6.35
 74
     0
 49
-1.27
 74
     0
 49
1.27
 74
     0
 49
-1.27
 74
     0
 49
1.27
 74
     0
 49
-1.27
 74
     0
  0
LTYPE
  5
70
330
5
100
AcDbSymbolTableRecord
100
AcDbLinetypeTableRecord
  2
CENTER
 70
     0
  3
Center ____ _ ____ _ ____ _ ____ _ ____ _ ____
 72
    65
 73
     4
 40
10.16
 49
6.35
 74
     0
 49
-1.27
 74
     0
 49
1.27
 74
     0
 49
-1.27
 74
     0
  0
LTYPE
  5
71
330
5
100
AcDbSymbolTableRecord
100
AcDbLinetypeTableRecord
  2
CENTERX2
 70
     0
  3
Center (2x) ________  __  ________  __  _____
 72
    65
 73
     4
 40
20.32
 49
12.7
 74
     0
 49
-2.54
 74
     0
 49
2.54
 74
     0
 49
-2.54
 74
     0
  0
LTYPE
  5
72
330
5
100
AcDbSymbolTableRecord
100
AcDbLinetypeTableRecord
  2
DOT2
 70
     0
  3
Dot (.5x) ........................................
 72
    65
 73
     2
 40
0.635
 49
0.0
 74
     0
 49
-0.635
 74
     0
  0
ENDTAB
  0
TABLE
  2
LAYER
  5
2
330
0
100
AcDbSymbolTable
 70
    17
  0
LAYER
  5
10
330
2
100
AcDbSymbolTableRecord
100
AcDbLayerTableRecord
  2
0
 70
     0
 62
     7
  6
Continuous
370
    -3
390
F
  0
LAYER
  5
73
330
2
100
AcDbSymbolTableRecord
100
AcDbLayerTableRecord
  2
FORMAT
 70
     0
 62
     7
  6
Continuous
370
    -3
390
F
  0
LAYER
  5
74
330
2
100
AcDbSymbolTableRecord
100
AcDbLayerTableRecord
  2
YARDIMCI_GEOMETRI
 70
     0
 62
    -6
  6
Continuous
290
     0
370
    -3
390
F
  0
LAYER
  5
75
330
2
100
AcDbSymbolTableRecord
100
AcDbLayerTableRecord
  2
SAYFA_CERCEVESI
 70
     0
 62
     7
  6
Continuous
370
    25
390
F
  0
LAYER
  5
76
330
2
100
AcDbSymbolTableRecord
100
AcDbLayerTableRecord
  2
ANTET
 70
     0
 62
     7
  6
Continuous
370
    -3
390
F
  0
LAYER
  5
77
330
2
100
AcDbSymbolTableRecord
100
AcDbLayerTableRecord
  2
OLCU
 70
     0
 62
   150
  6
Continuous
370
    -3
390
F
  0
LAYER
  5
78
330
2
100
AcDbSymbolTableRecord
100
AcDbLayerTableRecord
  2
METIN
 70
     0
 62
    96
  6
Continuous
370
    -3
390
F
  0
LAYER
  5
79
330
2
100
AcDbSymbolTableRecord
100
AcDbLayerTableRecord
  2
BALON
 70
     0
 62
     5
  6
Continuous
370
    -3
390
F
  0
LAYER
  5
7A
330
2
100
AcDbSymbolTableRecord
100
AcDbLayerTableRecord
  2
VURGU
 70
     0
 62
     7
  6
Continuous
370
    -3
390
F
  0
LAYER
  5
7B
330
2
100
AcDbSymbolTableRecord
100
AcDbLayerTableRecord
  2
SILIK
 70
     0
 62
     7
  6
Continuous
370
    -3
390
F
  0
LAYER
  5
7C
330
2
100
AcDbSymbolTableRecord
100
AcDbLayerTableRecord
  2
MODEL
 70
     0
 62
     7
  6
Continuous
370
    -3
390
F
  0
LAYER
  5
7D
330
2
100
AcDbSymbolTableRecord
100
AcDbLayerTableRecord
  2
DETAYLANDıRMA
 70
     0
 62
   190
  6
Continuous
370
    -3
390
F
  0
LAYER
  5
7E
330
2
100
AcDbSymbolTableRecord
100
AcDbLayerTableRecord
  2
TOLERANS
 70
     0
 62
   230
  6
Continuous
370
    -3
390
F
  0
LAYER
  5
7F
330
2
100
AcDbSymbolTableRecord
100
AcDbLayerTableRecord
  2
MERKEZ_CIZGILERI
 70
     0
 62
    30
  6
Continuous
370
    -3
390
F
  0
LAYER
  5
80
330
2
100
AcDbSymbolTableRecord
100
AcDbLayerTableRecord
  2
KESIT-DETAY_CIZGILERI
 70
     0
 62
     7
  6
Continuous
370
    -3
390
F
  0
LAYER
  5
81
330
2
100
AcDbSymbolTableRecord
100
AcDbLayerTableRecord
  2
\U+041E\U+0421\U+0415\U+0412\U+042B\U+0415
 70
     0
 62
     7
  6
Continuous
370
    -3
390
F
  0
LAYER
  5
82
330
2
100
AcDbSymbolTableRecord
100
AcDbLayerTableRecord
  2
\U+0412\U+041E\U+0414\U+042F\U+041D\U+042B\U+0415_\U+0417\U+041D\U+0410\U+041A\U+0418
 70
     0
 62
    11
  6
Continuous
370
    -3
390
F
  0
ENDTAB
  0
TABLE
  2
STYLE
  5
3
330
0
100
AcDbSymbolTable
 70
     1
  0
STYLE
  5
11
330
3
100
AcDbSymbolTableRecord
100
AcDbTextStyleTableRecord
  2
Standard
 70
     0
 40
0.0
 41
1.0
 50
0.0
 71
     0
 42
3.5
  3
txt
  4

  0
ENDTAB
  0
TABLE
  2
VIEW
  5
6
330
0
100
AcDbSymbolTable
 70
     0
  0
ENDTAB
  0
TABLE
  2
UCS
  5
7
330
0
100
AcDbSymbolTable
 70
     0
  0
ENDTAB
  0
TABLE
  2
APPID
  5
9
330
0
100
AcDbSymbolTable
 70
     1
  0
APPID
  5
12
330
9
100
AcDbSymbolTableRecord
100
AcDbRegAppTableRecord
  2
ACAD
 70
     0
  0
ENDTAB
  0
TABLE
  2
DIMSTYLE
  5
A
330
0
100
AcDbSymbolTable
 70
     1
100
AcDbDimStyleTable
  0
DIMSTYLE
105
27
330
A
100
AcDbSymbolTableRecord
100
AcDbDimStyleTableRecord
  2
ISO-25
 70
     0
 41
2.5
 42
0.625
 43
3.75
 44
1.25
 73
     0
 74
     0
 77
     1
 78
     8
140
2.5
141
2.5
143
0.0393700787
147
0.625
171
     3
172
     1
178
     0
271
     2
272
     2
274
     3
278
    44
283
     0
284
     8
340
11
  0
ENDTAB
  0
TABLE
  2
BLOCK_RECORD
  5
1
330
0
100
AcDbSymbolTable
 70
     3
  0
BLOCK_RECORD
  5
1F
330
1
100
AcDbSymbolTableRecord
100
AcDbBlockTableRecord
  2
*Model_Space
340
22
  0
BLOCK_RECORD
  5
1B
330
1
100
AcDbSymbolTableRecord
100
AcDbBlockTableRecord
  2
*Paper_Space
340
1E
  0
BLOCK_RECORD
  5
23
330
1
100
AcDbSymbolTableRecord
100
AcDbBlockTableRecord
  2
*Paper_Space0
340
26
  0
BLOCK_RECORD
  5
88
330
1
100
AcDbSymbolTableRecord
100
AcDbBlockTableRecord
  2
SW_CENTERMARKSYMBOL_0
340
0
102
{BLKREFS
331
93
102
}
  0
BLOCK_RECORD
  5
B2
330
1
100
AcDbSymbolTableRecord
100
AcDbBlockTableRecord
  2
SW_CENTERMARKSYMBOL_1
340
0
102
{BLKREFS
331
BD
102
}
  0
ENDTAB
  0
ENDSEC
  0
SECTION
  2
BLOCKS
  0
BLOCK
  5
20
330
1F
100
AcDbEntity
  8
0
100
AcDbBlockBegin
  2
*Model_Space
 70
     0
 10
0.0
 20
0.0
 30
0.0
  3
*Model_Space
  1

  0
ENDBLK
  5
21
330
1F
100
AcDbEntity
  8
0
100
AcDbBlockEnd
  0
BLOCK
  5
1C
330
1B
100
AcDbEntity
 67
     1
  8
0
100
AcDbBlockBegin
  2
*Paper_Space
 70
     0
 10
0.0
 20
0.0
 30
0.0
  3
*Paper_Space
  1

  0
ENDBLK
  5
1D
330
1B
100
AcDbEntity
 67
     1
  8
0
100
AcDbBlockEnd
  0
BLOCK
  5
24
330
23
100
AcDbEntity
  8
0
100
AcDbBlockBegin
  2
*Paper_Space0
 70
     0
 10
0.0
 20
0.0
 30
0.0
  3
*Paper_Space0
  1

  0
ENDBLK
  5
25
330
23
100
AcDbEntity
  8
0
100
AcDbBlockEnd
  0
BLOCK
  5
89
330
88
100
AcDbEntity
  8
0
100
AcDbBlockBegin
  2
SW_CENTERMARKSYMBOL_0
 70
     0
 10
0.0
 20
0.0
 30
0.0
  3
SW_CENTERMARKSYMBOL_0
  1

  0
LINE
  5
8B
330
88
100
AcDbEntity
  8
FORMAT
 62
     0
100
AcDbLine
 10
0.0
 20
0.0
 30
0.0
 11
0.0
 21
2.5
 31
0.0
  0
LINE
  5
8C
330
88
100
AcDbEntity
  8
FORMAT
 62
     0
100
AcDbLine
 10
0.0
 20
0.0
 30
0.0
 11
-2.5
 21
0.0
 31
0.0
  0
LINE
  5
8D
330
88
100
AcDbEntity
  8
FORMAT
 62
     0
100
AcDbLine
 10
0.0
 20
0.0
 30
0.0
 11
0.0
 21
-2.5
 31
0.0
  0
LINE
  5
8E
330
88
100
AcDbEntity
  8
FORMAT
 62
     0
100
AcDbLine
 10
0.0
 20
0.0
 30
0.0
 11
2.5
 21
0.0
 31
0.0
  0
LINE
  5
8F
330
88
100
AcDbEntity
  8
FORMAT
 62
     0
100
AcDbLine
 10
0.0
 20
5.0
 30
0.0
 11
0.0
 21
102.5
 31
0.0
  0
LINE
  5
90
330
88
100
AcDbEntity
  8
FORMAT
 62
     0
100
AcDbLine
 10
-5.0
 20
0.0
 30
0.0
 11
-102.5
 21
0.0
 31
0.0
  0
LINE
  5
91
330
88
100
AcDbEntity
  8
FORMAT
 62
     0
100
AcDbLine
 10
0.0
 20
-5.0
 30
0.0
 11
0.0
 21
-102.5
 31
0.0
  0
LINE
  5
92
330
88
100
AcDbEntity
  8
FORMAT
 62
     0
100
AcDbLine
 10
5.0
 20
0.0
 30
0.0
 11
102.5
 21
0.0
 31
0.0
  0
ENDBLK
  5
8A
330
88
100
AcDbEntity
  8
0
100
AcDbBlockEnd
  0
BLOCK
  5
B3
330
B2
100
AcDbEntity
  8
0
100
AcDbBlockBegin
  2
SW_CENTERMARKSYMBOL_1
 70
     0
 10
0.0
 20
0.0
 30
0.0
  3
SW_CENTERMARKSYMBOL_1
  1

  0
LINE
  5
B5
330
B2
100
AcDbEntity
  8
FORMAT
 62
     0
100
AcDbLine
 10
0.0
 20
0.0
 30
0.0
 11
0.0
 21
2.5
 31
0.0
  0
LINE
  5
B6
330
B2
100
AcDbEntity
  8
FORMAT
 62
     0
100
AcDbLine
 10
0.0
 20
0.0
 30
0.0
 11
-2.5
 21
0.0
 31
0.0
  0
LINE
  5
B7
330
B2
100
AcDbEntity
  8
FORMAT
 62
     0
100
AcDbLine
 10
0.0
 20
0.0
 30
0.0
 11
0.0
 21
-2.5
 31
0.0
  0
LINE
  5
B8
330
B2
100
AcDbEntity
  8
FORMAT
 62
     0
100
AcDbLine
 10
0.0
 20
0.0
 30
0.0
 11
2.5
 21
0.0
 31
0.0
  0
LINE
  5
B9
330
B2
100
AcDbEntity
  8
FORMAT
 62
     0
100
AcDbLine
 10
0.0
 20
5.0
 30
0.0
 11
0.0
 21
82.5
 31
0.0
  0
LINE
  5
BA
330
B2
100
AcDbEntity
  8
FORMAT
 62
     0
100
AcDbLine
 10
-5.0
 20
0.0
 30
0.0
 11
-82.5
 21
0.0
 31
0.0
  0
LINE
  5
BB
330
B2
100
AcDbEntity
  8
FORMAT
 62
     0
100
AcDbLine
 10
0.0
 20
-5.0
 30
0.0
 11
0.0
 21
-82.5
 31
0.0
  0
LINE
  5
BC
330
B2
100
AcDbEntity
  8
FORMAT
 62
     0
100
AcDbLine
 10
5.0
 20
0.0
 30
0.0
 11
82.5
 21
0.0
 31
0.0
  0
ENDBLK
  5
B4
330
B2
100
AcDbEntity
  8
0
100
AcDbBlockEnd
  0
ENDSEC
  0
SECTION
  2
ENTITIES
  0
LINE
  5
83
330
1F
100
AcDbEntity
  8
0
  6
Continuous
 62
     7
370
    25
100
AcDbLine
 10
127.3054204771
 20
27.1295982361
 30
0.0
 11
294.2679413696
 21
27.1295982361
 31
0.0
  0
LINE
  5
84
330
1F
100
AcDbEntity
  8
0
  6
Continuous
 62
     7
370
    25
100
AcDbLine
 10
294.2679413696
 20
187.1295982361
 30
0.0
 11
127.3435465329
 21
187.1295982361
 31
0.0
  0
CIRCLE
  5
85
330
1F
100
AcDbEntity
  8
0
  6
Continuous
 62
     7
370
    25
100
AcDbCircle
 10
67.2679413696
 20
107.1295982361
 30
0.0
 40
81.80000000000003
  0
CIRCLE
  5
86
330
1F
100
AcDbEntity
  8
0
  6
Continuous
 62
     7
370
    25
100
AcDbCircle
 10
67.2679413696
 20
107.1295982361
 30
0.0
 40
100.0
  0
LINE
  5
87
330
1F
100
AcDbEntity
  8
0
  6
Continuous
 62
     7
370
    25
100
AcDbLine
 10
294.2679413696
 20
187.1295982361
 30
0.0
 11
294.2679413696
 21
27.1295982361
 31
0.0
  0
INSERT
  5
93
330
1F
100
AcDbEntity
  8
FORMAT
100
AcDbBlockReference
  2
SW_CENTERMARKSYMBOL_0
 10
67.2679413696
 20
107.1295982361
 30
0.0
  0
LINE
  5
94
330
1F
100
AcDbEntity
  8
0
  6
Continuous
 62
     7
370
    25
100
AcDbLine
 10
-32.7320586304
 20
-84.3844017349
 30
0.0
 11
-32.7320586304
 21
-565.3844017349
 31
0.0
  0
LINE
  5
95
330
1F
100
AcDbEntity
  8
0
  6
Continuous
 62
     7
370
    25
100
AcDbLine
 10
167.2679413696
 20
-244.9363308645
 30
0.0
 11
167.2679413696
 21
-84.3844017349
 31
0.0
  0
LINE
  5
96
330
1F
100
AcDbEntity
  8
0
  6
Continuous
 62
     7
370
    25
100
AcDbLine
 10
167.2679413696
 20
-565.3844017349
 30
0.0
 11
167.2679413696
 21
-404.8844017349
 31
0.0
  0
LINE
  5
97
330
1F
100
AcDbEntity
  8
0
  6
Continuous
 62
     7
370
    25
100
AcDbLine
 10
167.2679413696
 20
-404.8844017349
 30
0.0
 11
294.2679413696
 21
-404.8844017349
 31
0.0
  0
LINE
  5
98
330
1F
100
AcDbEntity
  8
0
  6
Continuous
 62
     7
370
    25
100
AcDbLine
 10
294.2679413696
 20
-244.8844017349
 30
0.0
 11
167.2263717437
 21
-244.8844017349
 31
0.0
  0
LWPOLYLINE
  5
99
330
1F
100
AcDbEntity
  8
0
  6
Continuous
 62
     7
370
    25
100
AcDbPolyline
 90
       44
 70
   128
 43
0.0
 10
167.2263708921
 20
-244.9363308645
 10
167.2049792263
 20
-244.9630152108
 10
166.8278330591
 20
-245.4352228013
 10
166.2088041215
 20
-246.2122758998
 10
165.3365229485
 20
-247.3121986407
 10
164.1935183967
 20
-248.7622926489
 10
162.8198680326
 20
-250.5192843141
 10
161.1734220983
 20
-252.6469645027
 10
159.3280723953
 20
-255.0627165327
 10
157.2667328763
 20
-257.8039099753
 10
155.0539850694
 20
-260.8032854177
 10
152.3169115981
 20
-264.6070853395
 10
149.4565458463
 20
-268.7153114286
 10
146.4588952534
 20
-273.2001998263
 10
143.4312077515
 20
-277.9712570316
 10
139.8916014358
 20
-283.9656554798
 10
136.4963033305
 20
-290.3508513847
 10
133.2715490304
 20
-297.3786841997
 10
130.5301861024
 20
-304.8316810059
 10
128.4305446359
 20
-313.0157860485
 10
127.739936733
 20
-317.349370992
 10
127.3501844377
 20
-321.7418021583
 10
127.2802214686
 20
-326.0575056304
 10
127.5176335194
 20
-330.3639458904
 10
128.0764892542
 20
-334.7639276229
 10
128.9263584537
 20
-339.0886404444
 10
130.3349237971
 20
-344.3112393831
 10
132.0671485799
 20
-349.3575963585
 10
134.109774468
 20
-354.3438654365
 10
136.3523020123
 20
-359.1283630334
 10
139.7587741627
 20
-365.5669885158
 10
143.3158834707
 20
-371.6100852272
 10
147.0123642963
 20
-377.4132375525
 10
150.6502284943
 20
-382.7860926096
 10
154.0683519645
 20
-387.6089089699
 10
157.2606771249
 20
-391.9566947383
 10
160.2488316609
 20
-395.9160008326
 10
162.8148653222
 20
-399.2430910511
 10
164.2123467468
 20
-401.0304873988
 10
165.370347273
 20
-402.4993619168
 10
166.2877336938
 20
-403.6557888568
 10
166.9117840813
 20
-404.4387566777
 10
167.2679413696
 20
-404.8844017349
 10
167.2679413696
 20
-404.8844017349
  0
LINE
  5
9A
330
1F
100
AcDbEntity
  8
0
  6
Continuous
 62
     7
370
    25
100
AcDbLine
 10
167.2679413696
 20
-565.3844017349
 30
0.0
 11
-32.7320586304
 21
-565.3844017349
 31
0.0
  0
LINE
  5
9B
330
1F
100
AcDbEntity
  8
0
  6
Continuous
 62
     7
370
    25
100
AcDbLine
 10
167.2679413696
 20
-84.3844017349
 30
0.0
 11
-32.7320586304
 21
-84.3844017349
 31
0.0
  0
LINE
  5
9C
330
1F
100
AcDbEntity
  8
0
  6
Continuous
 62
     7
370
    25
100
AcDbLine
 10
294.2679413696
 20
-244.8844017349
 30
0.0
 11
294.2679413696
 21
-404.8844017349
 31
0.0
  0
LINE
  5
9D
330
1F
100
AcDbEntity
  8
0
  6
Continuous
 62
     7
370
    25
100
AcDbLine
 10
167.2679413696
 20
578.652727617
 30
0.0
 11
167.2679413696
 21
739.152727617
 31
0.0
  0
LINE
  5
9E
330
1F
100
AcDbEntity
  8
0
  6
Continuous
 62
     7
370
    25
100
AcDbLine
 10
167.2679413696
 20
258.152727617
 30
0.0
 11
167.2679413696
 21
418.7040200575
 31
0.0
  0
LINE
  5
9F
330
1F
100
AcDbEntity
  8
0
  6
Continuous
 62
     7
370
    25
100
AcDbLine
 10
-32.7320586304
 20
739.152727617
 30
0.0
 11
-32.7320586304
 21
258.152727617
 31
0.0
  0
LINE
  5
A0
330
1F
100
AcDbEntity
  8
0
  6
Continuous
 62
     7
370
    25
100
AcDbLine
 10
167.2269137236
 20
418.652727617
 30
0.0
 11
294.2679413696
 21
418.652727617
 31
0.0
  0
LINE
  5
A1
330
1F
100
AcDbEntity
  8
0
  6
Continuous
 62
     7
370
    25
100
AcDbLine
 10
294.2679413696
 20
578.652727617
 30
0.0
 11
167.2679413696
 21
578.652727617
 31
0.0
  0
SPLINE
  5
A2
330
1F
100
AcDbEntity
  8
0
  6
Continuous
 62
     7
370
    25
100
AcDbSpline
210
0.0
220
0.0
230
1.0
 70
     8
 71
     3
 72
    49
 73
    45
 74
     0
 42
0.000000001
 43
0.00000001
 40
0.0
 40
0.0
 40
0.0
 40
0.0
 40
0.0212216729366201
 40
0.0426176342825824
 40
0.0645500760407357
 40
0.0866593971307012
 40
0.107877027759952
 40
0.1292310094815165
 40
0.1509774237613344
 40
0.1728440396045563
 40
0.2014183094093594
 40
0.2302093722176766
 40
0.2596191131211224
 40
0.2892203465086046
 40
0.318245686412268
 40
0.347452077572399
 40
0.3772938773098226
 40
0.4074125474473491
 40
0.440874373732994
 40
0.4579521910253015
 40
0.475154169564687
 40
0.4918631013493003
 40
0.5087147184230555
 40
0.5260178468951004
 40
0.5434721062637639
 40
0.5629073057401952
 40
0.5825009166281145
 40
0.602506446642398
 40
0.6226222156033221
 40
0.6516756330356727
 40
0.6809473641784524
 40
0.7108248478617161
 40
0.740894732418512
 40
0.7706346921037565
 40
0.8005850054569332
 40
0.8312755308535822
 40
0.8622659450013046
 40
0.8834911578344904
 40
0.9048436527506063
 40
0.9266286599807543
 40
0.948578206913464
 40
0.9698091005966318
 40
0.991210870547423
 40
1.0
 40
1.0
 40
1.0
 40
1.0
 10
167.2679413695817
 20
578.6527276169908
 30
0.0
 10
167.2371115579555
 20
578.6142076329169
 30
0.0
 10
167.1751987370006
 20
578.5368513095613
 30
0.0
 10
166.6723137647555
 20
577.907433543255
 30
0.0
 10
165.8655631502725
 20
576.8938435055943
 30
0.0
 10
164.7481492707734
 20
575.4818231824416
 30
0.0
 10
163.367231823259
 20
573.7229658006657
 30
0.0
 10
161.7501259867352
 20
571.6428540757952
 30
0.0
 10
159.8957537137128
 20
569.2277958152833
 30
0.0
 10
157.6198806591735
 20
566.2179916381524
 30
0.0
 10
154.890011177232
 20
562.5307069629336
 30
0.0
 10
151.6807190210353
 20
558.0599204742814
 30
0.0
 10
148.278114841719
 20
553.1275274316979
 30
0.0
 10
144.7834842822664
 20
547.7924458243274
 30
0.0
 10
141.2952405927881
 20
542.0977458627153
 30
0.0
 10
137.8855407517648
 20
536.0200947578157
 30
0.0
 10
134.6358486038845
 20
529.4833890879395
 30
0.0
 10
131.6003626224843
 20
522.2191427841478
 30
0.0
 10
129.4965735886611
 20
515.5608848122441
 30
0.0
 10
128.2346119239908
 20
509.7580069787093
 30
0.0
 10
127.5803191122639
 20
505.3011494416409
 30
0.0
 10
127.2511361114473
 20
500.808048840988
 30
0.0
 10
127.2570918204605
 20
496.2867676998847
 30
0.0
 10
127.6096992557139
 20
491.7203040555232
 30
0.0
 10
128.3305645095225
 20
486.98964990193
 30
0.0
 10
129.4311324693188
 20
482.166610304512
 30
0.0
 10
130.9079321661791
 20
477.275786344628
 30
0.0
 10
132.6728559831973
 20
472.4983359297063
 30
0.0
 10
134.964160498233
 20
467.170792740551
 30
0.0
 10
137.8184468566178
 20
461.4145329268667
 30
0.0
 10
141.229038651724
 20
455.3172595229107
 30
0.0
 10
144.7725437333654
 20
449.5275365500126
 30
0.0
 10
148.3326461537712
 20
444.095849880155
 30
0.0
 10
151.8085212913548
 20
439.0626726723382
 30
0.0
 10
155.1424287674556
 20
434.4268369710823
 30
0.0
 10
158.2718641524812
 20
430.2129711862228
 30
0.0
 10
160.7975909588036
 20
426.8968789079632
 30
0.0
 10
162.7501925292123
 20
424.3735037351771
 30
0.0
 10
164.2262731995448
 20
422.4864974598106
 30
0.0
 10
165.4518468776074
 20
420.9332680149332
 30
0.0
 10
166.3869123322397
 20
419.7560982548376
 30
0.0
 10
166.9869463951114
 20
419.0040039078687
 30
0.0
 10
167.2724989634038
 20
418.6470276514361
 30
0.0
 10
167.2371915738188
 20
418.6911695376286
 30
0.0
 10
167.2269129394016
 20
418.7040200574772
 30
0.0
  0
LINE
  5
A3
330
1F
100
AcDbEntity
  8
0
  6
Continuous
 62
     7
370
    25
100
AcDbLine
 10
-32.7320586304
 20
739.152727617
 30
0.0
 11
167.2679413696
 21
739.152727617
 31
0.0
  0
LINE
  5
A4
330
1F
100
AcDbEntity
  8
0
  6
Continuous
 62
     7
370
    25
100
AcDbLine
 10
-32.7320586304
 20
258.152727617
 30
0.0
 11
167.2679413696
 21
258.152727617
 31
0.0
  0
LINE
  5
A5
330
1F
100
AcDbEntity
  8
0
  6
Continuous
 62
     7
370
    25
100
AcDbLine
 10
294.2679413696
 20
578.652727617
 30
0.0
 11
294.2679413696
 21
418.652727617
 31
0.0
  0
LINE
  5
A6
330
1F
100
AcDbEntity
  8
0
  6
Continuous
 62
     7
370
    25
100
AcDbLine
 10
373.7061484107
 20
7.1295982361
 30
0.0
 11
854.7061484107
 21
7.1295982361
 31
0.0
  0
LINE
  5
A7
330
1F
100
AcDbEntity
  8
0
  6
Continuous
 62
     7
370
    25
100
AcDbLine
 10
854.7061484107
 20
207.1295982361
 30
0.0
 11
373.7061484107
 21
207.1295982361
 31
0.0
  0
LINE
  5
A8
330
1F
100
AcDbEntity
  8
0
  6
Continuous
 62
     7
370
    25
100
AcDbLine
 10
854.7061484107
 20
207.1295982361
 30
0.0
 11
854.7061484107
 21
7.1295982361
 31
0.0
  0
LINE
  5
A9
330
1F
100
AcDbEntity
  8
0
  6
Continuous
 62
     7
370
    25
100
AcDbLine
 10
373.7061484107
 20
207.1295982361
 30
0.0
 11
373.7061484107
 21
7.1295982361
 31
0.0
  0
LINE
  5
AA
330
1F
100
AcDbEntity
  8
0
  6
Continuous
 62
     7
370
    25
100
AcDbLine
 10
-106.6375718983
 20
207.1295982361
 30
0.0
 11
-587.6375718983
 21
207.1295982361
 31
0.0
  0
LINE
  5
AB
330
1F
100
AcDbEntity
  8
0
  6
Continuous
 62
     7
370
    25
100
AcDbLine
 10
-587.6375718983
 20
7.1295982361
 30
0.0
 11
-106.6375718983
 21
7.1295982361
 31
0.0
  0
CIRCLE
  5
AC
330
1F
100
AcDbEntity
  8
0
  6
Continuous
 62
     7
370
    25
100
AcDbCircle
 10
-347.1375718983
 20
107.1295982361
 30
0.0
 40
65.39999999999998
  0
CIRCLE
  5
AD
330
1F
100
AcDbEntity
  8
0
  6
Continuous
 62
     7
370
    25
100
AcDbCircle
 10
-347.1375718983
 20
107.1295982361
 30
0.0
 40
80.0
  0
LINE
  5
AE
330
1F
100
AcDbEntity
  8
0
  6
Continuous
 62
     7
370
    25
100
AcDbLine
 10
-587.6375718983
 20
107.1295982361
 30
0.0
 11
-587.6375718983
 21
207.1295982361
 31
0.0
  0
LINE
  5
AF
330
1F
100
AcDbEntity
  8
0
  6
Continuous
 62
     7
370
    25
100
AcDbLine
 10
-587.6375718983
 20
7.1295982361
 30
0.0
 11
-587.6375718983
 21
107.1295982361
 31
0.0
  0
LINE
  5
B0
330
1F
100
AcDbEntity
  8
0
  6
Continuous
 62
     7
370
    25
100
AcDbLine
 10
-106.6375718983
 20
107.1295982361
 30
0.0
 11
-106.6375718983
 21
207.1295982361
 31
0.0
  0
LINE
  5
B1
330
1F
100
AcDbEntity
  8
0
  6
Continuous
 62
     7
370
    25
100
AcDbLine
 10
-106.6375718983
 20
7.1295982361
 30
0.0
 11
-106.6375718983
 21
107.1295982361
 31
0.0
  0
INSERT
  5
BD
330
1F
100
AcDbEntity
  8
FORMAT
100
AcDbBlockReference
  2
SW_CENTERMARKSYMBOL_1
 10
-347.1375718983
 20
107.1295982361
 30
0.0
  0
LINE
  5
BE
330
1F
100
AcDbEntity
  8
0
  6
Continuous
 62
     7
370
    25
100
AcDbLine
 10
600.3202181629
 20
-199.0458810589
 30
0.0
 11
460.25534844
 21
-118.188152873
 31
0.0
  0
LINE
  5
BF
330
1F
100
AcDbEntity
  8
0
  6
Continuous
 62
     7
370
    25
100
AcDbLine
 10
800.3737101907
 20
-314.5343037663
 30
0.0
 11
760.333221998
 21
-291.4194219468
 31
0.0
  0
LINE
  5
C0
330
1F
100
AcDbEntity
  8
0
  6
Continuous
 62
     7
370
    25
100
AcDbLine
 10
360.2634751764
 20
-291.3979253491
 30
0.0
 11
700.3818369271
 21
-487.7440762425
 31
0.0
  0
LINE
  5
C1
330
1F
100
AcDbEntity
  8
0
  6
Continuous
 62
     7
370
    25
100
AcDbLine
 10
678.6097455157
 20
-338.5973807089
 30
0.0
 11
780.8285813184
 21
-279.5877028563
 31
0.0
  0
LINE
  5
C2
330
1F
100
AcDbEntity
  8
0
  6
Continuous
 62
     7
370
    25
100
AcDbLine
 10
700.8350827075
 20
-141.0198848754
 30
0.0
 11
598.6197904759
 21
-200.0275170679
 31
0.0
  0
SPLINE
  5
C3
330
1F
100
AcDbEntity
  8
0
  6
Continuous
 62
     7
370
    25
100
AcDbSpline
210
0.0
220
0.0
230
1.0
 70
     8
 71
     3
 72
    39
 73
    35
 74
     0
 42
0.000000001
 43
0.00000001
 40
0.0
 40
0.0
 40
0.0
 40
0.0
 40
0.0281901894939346
 40
0.0568502812428599
 40
0.0857462506614717
 40
0.1151155634847255
 40
0.1433003833072363
 40
0.1718415914774237
 40
0.2005535610312429
 40
0.2296004719912076
 40
0.2675576152783525
 40
0.3060801467096569
 40
0.3448696862660595
 40
0.3841910150293237
 40
0.4227473453645348
 40
0.4615441783803393
 40
0.5011850677650007
 40
0.541193742906585
 40
0.5745645804033489
 40
0.6083371218120623
 40
0.6311876782288038
 40
0.6533832871544636
 40
0.675967500956256
 40
0.6987533579844438
 40
0.7219390361611082
 40
0.7477561316242841
 40
0.7739689542509116
 40
0.8003583412329285
 40
0.8270794833652306
 40
0.8656731109887646
 40
0.9045567395412782
 40
0.9442450303347791
 40
0.9841889002760631
 40
1.0
 40
1.0
 40
1.0
 40
1.0
 10
594.4607283073005
 20
-229.4893844936896
 30
0.0
 10
594.4661688216162
 20
-231.0562874649716
 30
0.0
 10
594.4771405381781
 20
-234.2162121124032
 30
0.0
 10
594.5668777331592
 20
-239.3212795815808
 30
0.0
 10
594.7133884298125
 20
-244.6933193444847
 30
0.0
 10
594.9211344579406
 20
-250.2130980560306
 30
0.0
 10
595.1889229291181
 20
-255.8291039226142
 30
0.0
 10
595.5165101699969
 20
-261.479328535165
 30
0.0
 10
595.9131855040285
 20
-267.2260128467478
 30
0.0
 10
596.4312056444338
 20
-273.6056440368558
 30
0.0
 10
597.1099837330146
 20
-280.6060785499932
 30
0.0
 10
598.002546051633
 20
-288.1509846105016
 30
0.0
 10
599.0850178264569
 20
-295.6322691823047
 30
0.0
 10
600.383336605483
 20
-302.9173950428152
 30
0.0
 10
601.9435125486862
 20
-309.9627187996766
 30
0.0
 10
603.8301263614151
 20
-316.7431644364793
 30
0.0
 10
606.1540624740284
 20
-323.2578296143405
 30
0.0
 10
608.8784939021541
 20
-329.0565987632156
 30
0.0
 10
612.0116619530947
 20
-334.0858144064148
 30
0.0
 10
615.135949892164
 20
-337.8639412910173
 30
0.0
 10
618.2647086333371
 20
-340.764144325373
 30
0.0
 10
621.217763671785
 20
-342.9409239439969
 30
0.0
 10
624.4201701141079
 20
-344.7789453716248
 30
0.0
 10
627.8992739984685
 20
-346.2812200613124
 30
0.0
 10
631.7434334825447
 20
-347.4665937224021
 30
0.0
 10
635.9423861462715
 20
-348.2877861598141
 30
0.0
 10
640.4454678756881
 20
-348.7070892331294
 30
0.0
 10
645.0716141782789
 20
-348.7216150154316
 30
0.0
 10
650.4483236713327
 20
-348.3043331034266
 30
0.0
 10
656.5356869785221
 20
-347.2765607569654
 30
0.0
 10
663.2636355186963
 20
-345.4799974056792
 30
0.0
 10
669.8446714079365
 20
-343.0277299580854
 30
0.0
 10
674.99412441951
 20
-340.6954608181367
 30
0.0
 10
677.7809435786844
 20
-339.0095495650971
 30
0.0
 10
678.5712350253995
 20
-338.5314556640948
 30
0.0
  0
SPLINE
  5
C4
330
1F
100
AcDbEntity
  8
0
  6
Continuous
 62
     7
370
    25
100
AcDbSpline
210
0.0
220
0.0
230
1.0
 70
     8
 71
     3
 72
    17
 73
    13
 74
     0
 42
0.000000001
 43
0.00000001
 40
0.0
 40
0.0
 40
0.0
 40
0.0
 40
0.0323699041776778
 40
0.1550517855700488
 40
0.2787087279902268
 40
0.4058785408432984
 40
0.5344995473724924
 40
0.6173748391748708
 40
0.7013278711358191
 40
0.7858549897926161
 40
0.8715887982580265
 40
1.0
 40
1.0
 40
1.0
 40
1.0
 10
598.6522065736739
 20
-200.0854087796076
 30
0.0
 10
598.5450833434816
 20
-200.1242439654465
 30
0.0
 10
598.0319632543342
 20
-200.3102644391007
 30
0.0
 10
597.3264804688534
 20
-201.2977116687331
 30
0.0
 10
596.4893574231253
 20
-203.1316007166092
 30
0.0
 10
595.8167046681367
 20
-205.8209014227735
 30
0.0
 10
595.3417196294441
 20
-208.9471180355505
 30
0.0
 10
595.0156433250884
 20
-212.2228307798124
 30
0.0
 10
594.7941095584822
 20
-215.3740824589282
 30
0.0
 10
594.6276341331208
 20
-218.9361754612019
 30
0.0
 10
594.4922663681948
 20
-223.5121475349966
 30
0.0
 10
594.4725507182181
 20
-227.2487473246991
 30
0.0
 10
594.4607283073005
 20
-229.4893844936896
 30
0.0
  0
LWPOLYLINE
  5
C5
330
1F
100
AcDbEntity
  8
0
  6
Continuous
 62
     7
370
    25
100
AcDbPolyline
 90
      107
 70
   128
 43
0.0
 10
480.9700899269
 20
-163.9726335199
 10
480.845903009
 20
-159.2070860619
 10
480.4737784663
 20
-154.6016609266
 10
479.8550234
 20
-150.1725348377
 10
478.9918112097
 20
-145.9352652621
 10
477.8871739597
 20
-141.9047357639
 10
476.5449917288
 20
-138.0951037247
 10
474.9699789808
 20
-134.5197506161
 10
473.1676680055
 20
-131.1912349964
 10
471.144389486
 20
-128.121248398
 10
468.9072502619
 20
-125.3205742607
 10
466.4641083662
 20
-122.7990500547
 10
463.823545424
 20
-120.5655327257
 10
460.9948365089
 20
-118.6278675848
 10
457.9879175641
 20
-116.9928607515
 10
454.8133505022
 20
-115.6662552468
 10
451.4822861056
 20
-114.652710821
 10
448.0064248597
 20
-113.9557875858
 10
444.3979758537
 20
-113.5779335096
 10
440.6696138964
 20
-113.5204758186
 10
436.8344349952
 20
-113.783616335
 10
432.9059103558
 20
-114.3664307681
 10
428.8978390643
 20
-115.266871961
 10
424.8242996173
 20
-116.4817770811
 10
420.6996004707
 20
-118.00687873
 10
416.5382297806
 20
-119.8368199324
 10
412.3548045135
 20
-121.9651729531
 10
408.164019103
 20
-124.3844618746
 10
403.9805938358
 20
-127.0861888562
 10
399.8192231457
 20
-130.0608639834
 10
395.6945239991
 20
-133.2980386013
 10
391.6209845521
 20
-136.7863420161
 10
387.6129132606
 20
-140.5135214347
 10
383.6843886212
 20
-144.4664850034
 10
379.84920972
 20
-148.6313477937
 10
376.1208477627
 20
-152.993480573
 10
372.5123987567
 20
-157.5375611909
 10
369.0365375108
 20
-162.2476283985
 10
365.7054731142
 20
-167.1071379129
 10
362.5309060523
 20
-172.0990205296
 10
359.5239871075
 20
-177.2057420791
 10
356.6952781925
 20
-182.4093650155
 10
354.0547152502
 20
-187.6916114236
 10
351.6115733546
 20
-193.0339272201
 10
349.3744341304
 20
-198.417547326
 10
347.3511556109
 20
-203.8235615793
 10
345.5488446356
 20
-209.2329811578
 10
343.9738318877
 20
-214.6268052779
 10
342.6316496567
 20
-219.9860879357
 10
341.5270124067
 20
-225.2920044554
 10
340.6638002164
 20
-230.5259176117
 10
340.0450451501
 20
-235.6694430938
 10
339.6729206075
 20
-240.7045140808
 10
339.5487336896
 20
-245.6134447022
 10
339.6729206075
 20
-250.3789921602
 10
340.0450451501
 20
-254.9844172955
 10
340.6638002164
 20
-259.4135433844
 10
341.5270124067
 20
-263.65081296
 10
342.6316496567
 20
-267.6813424582
 10
343.9738318877
 20
-271.4909744974
 10
345.5488446356
 20
-275.066327606
 10
347.3511556109
 20
-278.3948432257
 10
349.3744341304
 20
-281.4648298242
 10
351.6115733546
 20
-284.2655039614
 10
354.0547152502
 20
-286.7870281674
 10
356.6952781925
 20
-289.0205454964
 10
359.5239871075
 20
-290.9582106373
 10
362.5309060523
 20
-292.5932174707
 10
365.7054731142
 20
-293.9198229753
 10
369.0365375108
 20
-294.9333674011
 10
372.5123987567
 20
-295.6302906363
 10
376.1208477627
 20
-296.0081447125
 10
379.84920972
 20
-296.0656024035
 10
383.6843886212
 20
-295.8024618871
 10
387.6129132606
 20
-295.219647454
 10
391.6209845521
 20
-294.3192062611
 10
395.6945239991
 20
-293.104301141
 10
399.8192231457
 20
-291.5791994921
 10
403.9805938358
 20
-289.7492582897
 10
408.164019103
 20
-287.620905269
 10
412.3548045135
 20
-285.2016163475
 10
416.5382297806
 20
-282.4998893659
 10
420.6996004707
 20
-279.5252142387
 10
424.8242996173
 20
-276.2880396208
 10
428.8978390643
 20
-272.799736206
 10
432.9059103558
 20
-269.0725567874
 10
436.8344349952
 20
-265.1195932187
 10
440.6696138964
 20
-260.9547304284
 10
444.3979758537
 20
-256.5925976491
 10
448.0064248597
 20
-252.0485170312
 10
451.4822861056
 20
-247.3384498236
 10
454.8133505022
 20
-242.4789403092
 10
457.9879175641
 20
-237.4870576925
 10
460.9948365089
 20
-232.380336143
 10
463.823545424
 20
-227.1767132066
 10
466.4641083662
 20
-221.8944667986
 10
468.9072502619
 20
-216.552151002
 10
471.144389486
 20
-211.1685308962
 10
473.1676680055
 20
-205.7625166428
 10
474.9699789808
 20
-200.3530970643
 10
476.5449917288
 20
-194.9592729442
 10
477.8871739597
 20
-189.5999902864
 10
478.9918112097
 20
-184.2940737667
 10
479.8550234
 20
-179.0601606104
 10
480.4737784663
 20
-173.9166351283
 10
480.845903009
 20
-168.8815641413
 10
480.9700899269
 20
-163.9726335199
  0
LWPOLYLINE
  5
C6
330
1F
100
AcDbEntity
  8
0
  6
Continuous
 62
     7
370
    25
100
AcDbPolyline
 90
       15
 70
   128
 43
0.0
 10
821.0884516776
 20
-360.3187844133
 10
820.9642647597
 20
-355.5532369553
 10
820.5921402171
 20
-350.94781182
 10
819.9733851507
 20
-346.5186857311
 10
819.1101729604
 20
-342.2814161555
 10
818.0055357105
 20
-338.2508866572
 10
816.6633534795
 20
-334.4412546181
 10
815.0883407315
 20
-330.8659015095
 10
813.2860297562
 20
-327.5373858898
 10
811.2627512367
 20
-324.4673992913
 10
809.0256120126
 20
-321.6667251541
 10
806.5824701169
 20
-319.1452009481
 10
803.9419071747
 20
-316.9116836191
 10
801.1131982596
 20
-314.9740184782
 10
800.3737101907
 20
-314.5343037663
  0
LWPOLYLINE
  5
C7
330
1F
100
AcDbEntity
  8
0
  6
Continuous
 62
     7
370
    25
100
AcDbPolyline
 90
       41
 70
   128
 43
0.0
 10
700.3818369271
 20
-487.7440762425
 10
702.649267803
 20
-488.939368364
 10
705.823834865
 20
-490.2659738687
 10
709.1548992615
 20
-491.2795182945
 10
712.6307605075
 20
-491.9764415296
 10
716.2392095134
 20
-492.3542956058
 10
719.9675714707
 20
-492.4117532969
 10
723.8027503719
 20
-492.1486127805
 10
727.7312750113
 20
-491.5657983474
 10
731.7393463028
 20
-490.6653571545
 10
735.8128857498
 20
-489.4504520344
 10
739.9375848964
 20
-487.9253503855
 10
744.0989555865
 20
-486.0954091831
 10
748.2823808537
 20
-483.9670561624
 10
752.4731662642
 20
-481.5477672409
 10
756.6565915314
 20
-478.8460402593
 10
760.8179622214
 20
-475.8713651321
 10
764.9426613681
 20
-472.6341905141
 10
769.0162008151
 20
-469.1458870994
 10
773.0242721065
 20
-465.4187076808
 10
776.9527967459
 20
-461.465744112
 10
780.7879756471
 20
-457.3008813217
 10
784.5163376044
 20
-452.9387485424
 10
788.1247866104
 20
-448.3946679245
 10
791.6006478564
 20
-443.684600717
 10
794.9317122529
 20
-438.8250912026
 10
798.1062793149
 20
-433.8332085858
 10
801.1131982596
 20
-428.7264870364
 10
803.9419071747
 20
-423.5228641
 10
806.5824701169
 20
-418.2406176919
 10
809.0256120126
 20
-412.8983018954
 10
811.2627512367
 20
-407.5146817895
 10
813.2860297562
 20
-402.1086675362
 10
815.0883407315
 20
-396.6992479577
 10
816.6633534795
 20
-391.3054238376
 10
818.0055357105
 20
-385.9461411797
 10
819.1101729604
 20
-380.64022466
 10
819.9733851507
 20
-375.4063115037
 10
820.5921402171
 20
-370.2627860217
 10
820.9642647597
 20
-365.2277150347
 10
821.0884516776
 20
-360.3187844133
  0
LWPOLYLINE
  5
C8
330
1F
100
AcDbEntity
  8
0
  6
Continuous
 62
     7
370
    25
100
AcDbPolyline
 90
       97
 70
   128
 43
0.0
 10
468.1007465093
 20
-171.4019473375
 10
467.9769037717
 20
-167.1049665052
 10
467.6059058726
 20
-162.9693717857
 10
466.9893414819
 20
-159.0128724307
 10
466.129850823
 20
-155.2524107776
 10
465.0311143668
 20
-151.7040897007
 10
463.6978370716
 20
-148.3831036556
 10
462.1357282355
 20
-145.3036736142
 10
460.3514770481
 20
-142.4789861689
 10
458.3527239472
 20
-139.921137065
 10
456.1480279002
 20
-137.6410794049
 10
453.7468297542
 20
-135.6485767456
 10
451.1594118082
 20
-133.9521612894
 10
448.3968537832
 20
-132.5590973477
 10
445.4709853766
 20
-131.4753502343
 10
442.3943356062
 20
-130.7055607205
 10
439.1800791587
 20
-130.2530251633
 10
435.8419799737
 20
-130.1196813895
 10
432.3943323042
 20
-130.3061003974
 10
428.8518995069
 20
-130.8114839124
 10
425.229850823
 20
-131.6336678046
 10
421.5436964209
 20
-132.7691313563
 10
417.8092209797
 20
-134.2130123384
 10
414.0424160965
 20
-135.9591278308
 10
410.2594118082
 20
-138.0000006988
 10
406.4764075199
 20
-140.3268916116
 10
402.7096026367
 20
-142.929836465
 10
398.9751271955
 20
-145.7976890495
 10
395.2889727934
 20
-148.9181687801
 10
391.6669241095
 20
-152.2779132835
 10
388.1244913122
 20
-155.8625356181
 10
384.6768436428
 20
-159.6566858805
 10
381.3387444577
 20
-163.6441169369
 10
378.1244880102
 20
-167.8077539953
 10
375.0478382398
 20
-172.1297677227
 10
372.1219698333
 20
-176.5916505928
 10
369.3594118082
 20
-181.174296138
 10
366.7719938622
 20
-185.8580807667
 10
364.3707957162
 20
-190.6229477939
 10
362.1660996693
 20
-195.4484933276
 10
360.1673465683
 20
-200.3140536409
 10
358.383095381
 20
-205.1987936577
 10
356.8209865448
 20
-210.0817961711
 10
355.4877092496
 20
-214.942151415
 10
354.3889727934
 20
-219.7590466018
 10
353.5294821345
 20
-224.5118550469
 10
352.9129177438
 20
-229.1802244948
 10
352.5419198447
 20
-233.744164271
 10
352.4180771071
 20
-238.1841308846
 10
352.5419198447
 20
-242.4811117169
 10
352.9129177438
 20
-246.6167064364
 10
353.5294821345
 20
-250.5732057914
 10
354.3889727934
 20
-254.3336674445
 10
355.4877092496
 20
-257.8819885214
 10
356.8209865448
 20
-261.2029745665
 10
358.383095381
 20
-264.2824046079
 10
360.1673465683
 20
-267.1070920532
 10
362.1660996693
 20
-269.6649411571
 10
364.3707957162
 20
-271.9449988172
 10
366.7719938622
 20
-273.9375014765
 10
369.3594118082
 20
-275.6339169327
 10
372.1219698333
 20
-277.0269808744
 10
375.0478382398
 20
-278.1107279878
 10
378.1244880102
 20
-278.8805175016
 10
381.3387444577
 20
-279.3330530588
 10
384.6768436428
 20
-279.4663968327
 10
388.1244913122
 20
-279.2799778247
 10
391.6669241095
 20
-278.7745943097
 10
395.2889727934
 20
-277.9524104175
 10
398.9751271955
 20
-276.8169468658
 10
402.7096026368
 20
-275.3730658837
 10
406.4764075199
 20
-273.6269503913
 10
410.2594118082
 20
-271.5860775233
 10
414.0424160965
 20
-269.2591866105
 10
417.8092209797
 20
-266.6562417572
 10
421.5436964209
 20
-263.7883891726
 10
425.229850823
 20
-260.667909442
 10
428.8518995069
 20
-257.3081649386
 10
432.3943323042
 20
-253.7235426041
 10
435.8419799737
 20
-249.9293923416
 10
439.1800791587
 20
-245.9419612852
 10
442.3943356062
 20
-241.7783242268
 10
445.4709853766
 20
-237.4563104994
 10
448.3968537832
 20
-232.9944276293
 10
451.1594118082
 20
-228.4117820841
 10
453.7468297542
 20
-223.7279974555
 10
456.1480279002
 20
-218.9631304282
 10
458.3527239472
 20
-214.1375848945
 10
460.3514770481
 20
-209.2720245812
 10
462.1357282355
 20
-204.3872845644
 10
463.6978370716
 20
-199.504282051
 10
465.0311143668
 20
-194.6439268072
 10
466.129850823
 20
-189.8270316203
 10
466.9893414819
 20
-185.0742231752
 10
467.6059058726
 20
-180.4058537273
 10
467.9769037717
 20
-175.8419139511
 10
468.1007465093
 20
-171.4019473375
  0
LWPOLYLINE
  5
C9
330
1F
100
AcDbEntity
  8
0
  6
Continuous
 62
     7
370
    25
100
AcDbPolyline
 90
       86
 70
   128
 43
0.0
 10
787.0766155025
 20
-237.0003391225
 10
786.950329017
 20
-232.9835798667
 10
786.5721592934
 20
-228.8429514845
 10
785.9441717637
 20
-224.6010686523
 10
785.0697962779
 20
-220.281099063
 10
783.9538083718
 20
-215.9066368926
 10
782.6023031843
 20
-211.5015739365
 10
781.022662168
 20
-207.089969121
 10
779.2235127745
 20
-202.6959171018
 10
777.2146813338
 20
-198.3434166673
 10
775.0071393867
 20
-194.0562396656
 10
772.6129437617
 20
-189.8578011707
 10
770.0451707251
 20
-185.7710315978
 10
767.3178445628
 20
-181.8182514651
 10
764.4458609846
 20
-178.0210494871
 10
761.4449057688
 20
-174.4001646641
 10
758.3313690922
 20
-170.9753730135
 10
755.1222560124
 20
-167.7653795595
 10
751.8350935922
 20
-164.7877161735
 10
748.4878351729
 20
-162.05864582
 10
745.0987623192
 20
-159.5930737352
 10
741.6863849719
 20
-157.4044660187
 10
738.2693403526
 20
-155.5047760869
 10
734.8662911741
 20
-153.9043793874
 10
731.4958237111
 20
-152.6120167322
 10
728.1763462879
 20
-151.6347465577
 10
724.9259887392
 20
-150.9779063749
 10
721.7625033908
 20
-150.6450836171
 10
718.7031681026
 20
-150.6380960467
 10
715.764691903
 20
-150.9569818274
 10
712.9631237302
 20
-151.5999993157
 10
710.313764778
 20
-152.5636365729
 10
707.8310849262
 20
-153.8426305467
 10
705.5286437112
 20
-155.4299958154
 10
703.4190162686
 20
-157.3170627404
 10
701.513724652
 20
-159.4935248165
 10
699.8231749033
 20
-161.9474949626
 10
698.3566002191
 20
-164.6655704447
 10
697.1220105217
 20
-167.6329060771
 10
696.1261487121
 20
-170.8332953016
 10
695.3744538419
 20
-174.2492587019
 10
694.871031408
 20
-177.8621394707
 10
694.6186309291
 20
-181.6522053059
 10
694.6186309291
 20
-185.5987561822
 10
694.871031408
 20
-189.6802374074
 10
695.3744538419
 20
-193.8743573463
 10
696.1261487121
 20
-198.1582091702
 10
697.1220105217
 20
-202.508395966
 10
698.3566002191
 20
-206.9011585219
 10
699.8231749033
 20
-211.312505092
 10
701.513724652
 20
-215.7183424313
 10
703.4190162686
 20
-220.0946073839
 10
705.5286437112
 20
-224.4173983082
 10
707.8310849262
 20
-228.6631056193
 10
710.313764778
 20
-232.8085407361
 10
712.9631237302
 20
-236.8310627295
 10
715.764691903
 20
-240.7087019792
 10
718.7031681026
 20
-244.4202801644
 10
721.7625033908
 20
-247.945525932
 10
724.9259887392
 20
-251.2651856122
 10
728.1763462879
 20
-254.3611283749
 10
731.4958237111
 20
-257.2164452544
 10
734.8662911741
 20
-259.8155414999
 10
738.2693403526
 20
-262.1442217492
 10
741.6863849719
 20
-264.1897675581
 10
745.0987623192
 20
-265.9410068648
 10
748.4878351729
 20
-267.3883750076
 10
751.8350935922
 20
-268.5239669634
 10
755.1222560124
 20
-269.3415805229
 10
758.3313690922
 20
-269.8367501644
 10
761.4449057688
 20
-270.0067714428
 10
764.4458609846
 20
-269.850715761
 10
767.3178445628
 20
-269.369435441
 10
770.0451707251
 20
-268.565559069
 10
772.6129437617
 20
-267.443477139
 10
775.0071393867
 20
-266.0093180734
 10
777.2146813338
 20
-264.2709147516
 10
779.2235127745
 20
-262.2377617298
 10
781.022662168
 20
-259.9209633848
 10
782.6023031843
 20
-257.3331732657
 10
783.9538083718
 20
-254.4885249847
 10
785.0697962779
 20
-251.4025550244
 10
785.9441717637
 20
-248.0921178826
 10
786.5721592934
 20
-244.5752940188
 10
786.950329017
 20
-240.8712911056
 10
787.0766155025
 20
-237.0003391225
  0
LWPOLYLINE
  5
CA
330
1F
100
AcDbEntity
  8
0
  6
Continuous
 62
     7
370
    25
100
AcDbPolyline
 90
       95
 70
   128
 43
0.0
 10
797.4003745078
 20
-242.9601183388
 10
797.2740500863
 20
-238.5240798916
 10
796.8956410174
 20
-233.9620027965
 10
796.2668373677
 20
-229.2942623971
 10
795.390447527
 20
-224.5417059553
 10
794.2703856652
 20
-219.7255595418
 10
792.9116542503
 20
-214.8673332356
 10
791.3203217068
 20
-209.9887250548
 10
789.503495312
 20
-205.1115240478
 10
787.4692894537
 20
-200.2575129782
 10
785.226789389
 20
-195.4483710378
 10
782.7860106677
 20
-190.705577022
 10
780.1578544
 20
-186.0503134002
 10
777.3540585697
 20
-181.5033717097
 10
774.3871456098
 20
-177.085059696
 10
771.2703664736
 20
-172.8151106131
 10
768.0176414535
 20
-168.7125950901
 10
764.6434980089
 20
-164.7958359573
 10
761.1630058837
 20
-161.0823264116
 10
757.5917098005
 20
-157.5886518884
 10
753.9455600345
 20
-154.330415986
 10
750.2408411758
 20
-151.3221707769
 10
746.4940993981
 20
-148.5773518146
 10
742.7220685597
 20
-146.1082181268
 10
738.9415954661
 20
-143.925797464
 10
735.1695646277
 20
-142.0398370466
 10
731.42282285
 20
-140.4587600317
 10
727.7181039913
 20
-139.189627893
 10
724.0719542254
 20
-138.2381088828
 10
720.5006581422
 20
-137.6084527159
 10
717.0201660169
 20
-137.3034715897
 10
713.6460225724
 20
-137.3245276238
 10
710.3932975522
 20
-137.671526777
 10
707.2765184161
 20
-138.3429192668
 10
704.3096054561
 20
-139.3357064912
 10
701.5058096259
 20
-140.6454544217
 10
698.8776533581
 20
-142.2663134059
 10
696.4368746368
 20
-144.1910442942
 10
694.1943745721
 20
-146.4110507713
 10
692.1601687138
 20
-148.9164177491
 10
690.3433423191
 20
-151.6959556508
 10
688.7520097755
 20
-154.7372503851
 10
687.3932783607
 20
-158.0267187917
 10
686.2732164988
 20
-161.5496693059
 10
685.3968266582
 20
-165.2903675757
 10
684.7680230085
 20
-169.2321067345
 10
684.3896139395
 20
-173.3572820183
 10
684.263289518
 20
-177.6474693929
 10
684.3896139395
 20
-182.0835078401
 10
684.7680230085
 20
-186.6455849353
 10
685.3968266582
 20
-191.3133253346
 10
686.2732164988
 20
-196.0658817764
 10
687.3932783607
 20
-200.8820281899
 10
688.7520097755
 20
-205.7402544961
 10
690.3433423191
 20
-210.6188626769
 10
692.1601687138
 20
-215.4960636839
 10
694.1943745721
 20
-220.3500747535
 10
696.4368746368
 20
-225.1592166939
 10
698.8776533581
 20
-229.9020107097
 10
701.5058096259
 20
-234.5572743315
 10
704.3096054561
 20
-239.104216022
 10
707.2765184161
 20
-243.5225280357
 10
710.3932975522
 20
-247.7924771186
 10
713.6460225724
 20
-251.8949926416
 10
717.0201660169
 20
-255.8117517745
 10
720.5006581422
 20
-259.5252613201
 10
724.0719542254
 20
-263.0189358433
 10
727.7181039913
 20
-266.2771717457
 10
731.42282285
 20
-269.2854169548
 10
735.1695646277
 20
-272.0302359171
 10
738.9415954661
 20
-274.4993696049
 10
742.7220685597
 20
-276.6817902677
 10
746.4940993981
 20
-278.5677506851
 10
750.2408411758
 20
-280.1488277
 10
753.9455600345
 20
-281.4179598387
 10
757.5917098005
 20
-282.3694788489
 10
761.1630058837
 20
-282.9991350158
 10
764.6434980089
 20
-283.304116142
 10
768.0176414535
 20
-283.2830601079
 10
771.2703664736
 20
-282.9360609547
 10
774.3871456098
 20
-282.2646684649
 10
777.3540585697
 20
-281.2718812405
 10
780.1578544
 20
-279.96213331
 10
782.7860106677
 20
-278.3412743258
 10
785.226789389
 20
-276.4165434375
 10
787.4692894537
 20
-274.1965369605
 10
789.503495312
 20
-271.6911699826
 10
791.3203217068
 20
-268.911632081
 10
792.9116542503
 20
-265.8703373466
 10
794.2703856652
 20
-262.5808689401
 10
795.390447527
 20
-259.0579184258
 10
796.2668373677
 20
-255.317220156
 10
796.8956410174
 20
-251.3754809972
 10
797.2740500863
 20
-247.2503057134
 10
797.4003745078
 20
-242.9601183388
  0
ENDSEC
  0
SECTION
  2
OBJECTS
  0
DICTIONARY
  5
C
330
0
100
AcDbDictionary
281
     1
  3
ACAD_GROUP
350
D
  3
ACAD_LAYOUT
350
1A
  3
ACAD_MLINESTYLE
350
17
  3
ACAD_PLOTSETTINGS
350
19
  3
ACAD_PLOTSTYLENAME
350
E
  3
ACAD_SCALELIST
350
47
  0
DICTIONARY
  5
D
102
{ACAD_REACTORS
330
C
102
}
330
C
100
AcDbDictionary
281
     1
  0
DICTIONARY
  5
1A
102
{ACAD_REACTORS
330
C
102
}
330
C
100
AcDbDictionary
281
     1
  3
Layout1
350
1E
  3
Layout2
350
26
  3
Model
350
22
  0
DICTIONARY
  5
17
102
{ACAD_REACTORS
330
C
102
}
330
C
100
AcDbDictionary
281
     1
  3
Standard
350
18
  0
DICTIONARY
  5
19
102
{ACAD_REACTORS
330
C
102
}
330
C
100
AcDbDictionary
281
     1
  0
ACDBDICTIONARYWDFLT
  5
E
102
{ACAD_REACTORS
330
C
102
}
330
C
100
AcDbDictionary
281
     1
  3
Normal
350
F
100
AcDbDictionaryWithDefault
340
F
  0
DICTIONARY
  5
47
102
{ACAD_REACTORS
330
C
102
}
330
C
100
AcDbDictionary
281
     1
  3
A0
350
48
  3
A1
350
49
  3
A2
350
4A
  3
A3
350
4B
  3
A4
350
4C
  3
A5
350
4D
  3
A6
350
4E
  3
A7
350
4F
  3
A8
350
50
  3
A9
350
51
  3
B0
350
52
  3
B1
350
53
  3
B2
350
54
  3
B3
350
55
  3
B4
350
56
  3
B5
350
57
  3
B6
350
58
  3
B7
350
59
  3
B8
350
5A
  3
B9
350
5B
  3
C0
350
5C
  3
C1
350
5D
  3
C2
350
5E
  3
C3
350
5F
  3
C4
350
60
  3
C5
350
61
  3
C6
350
62
  3
C7
350
63
  3
C8
350
64
  3
C9
350
65
  3
D0
350
66
  3
D1
350
67
  3
D2
350
68
  0
LAYOUT
  5
1E
102
{ACAD_REACTORS
330
1A
102
}
330
1A
100
AcDbPlotSettings
  1

  2
none_device
  4

  6

 40
0.0
 41
0.0
 42
0.0
 43
0.0
 44
0.0
 45
0.0
 46
0.0
 47
0.0
 48
0.0
 49
0.0
140
0.0
141
0.0
142
1.0
143
1.0
 70
   688
 72
     1
 73
     0
 74
     5
  7

 75
    16
147
1.0
148
0.0
149
0.0
100
AcDbLayout
  1
Layout1
 70
     1
 71
     1
 10
0.0
 20
0.0
 11
420.0
 21
297.0
 12
0.0
 22
0.0
 32
0.0
 14
1.0000000000E+20
 24
1.0000000000E+20
 34
1.0000000000E+20
 15
-1.0000000000E+20
 25
-1.0000000000E+20
 35
-1.0000000000E+20
146
0.0
 13
0.0
 23
0.0
 33
0.0
 16
1.0
 26
0.0
 36
0.0
 17
0.0
 27
1.0
 37
0.0
 76
     0
330
1B
  0
LAYOUT
  5
26
102
{ACAD_REACTORS
330
1A
102
}
330
1A
100
AcDbPlotSettings
  1

  2
none_device
  4

  6

 40
0.0
 41
0.0
 42
0.0
 43
0.0
 44
0.0
 45
0.0
 46
0.0
 47
0.0
 48
0.0
 49
0.0
140
0.0
141
0.0
142
1.0
143
1.0
 70
   688
 72
     1
 73
     0
 74
     5
  7

 75
    16
147
1.0
148
0.0
149
0.0
100
AcDbLayout
  1
Layout2
 70
     1
 71
     2
 10
0.0
 20
0.0
 11
0.0
 21
0.0
 12
0.0
 22
0.0
 32
0.0
 14
0.0
 24
0.0
 34
0.0
 15
0.0
 25
0.0
 35
0.0
146
0.0
 13
0.0
 23
0.0
 33
0.0
 16
1.0
 26
0.0
 36
0.0
 17
0.0
 27
1.0
 37
0.0
 76
     0
330
23
  0
LAYOUT
  5
22
102
{ACAD_REACTORS
330
1A
102
}
330
1A
100
AcDbPlotSettings
  1

  2
none_device
  4
Letter_(8.50_x_11.00_Inches)
  6

 40
6.35
 41
6.35
 42
6.35000508
 43
6.35000508
 44
215.9
 45
279.4
 46
0.0
 47
0.0
 48
0.0
 49
0.0
140
0.0
141
0.0
142
1.0
143
1.0
 70
  1712
 72
     1
 73
     0
 74
     0
  7

 75
     0
147
1.0
148
0.0
149
0.0
100
AcDbLayout
  1
Model
 70
     1
 71
     0
 10
0.0
 20
0.0
 11
279.4
 21
215.9
 12
0.0
 22
0.0
 32
0.0
 14
0.0
 24
0.0
 34
0.0
 15
279.4
 25
215.9
 35
0.0
146
0.0
 13
0.0
 23
0.0
 33
0.0
 16
1.0
 26
0.0
 36
0.0
 17
0.0
 27
1.0
 37
0.0
 76
     0
330
1F
331
29
  0
MLINESTYLE
  5
18
102
{ACAD_REACTORS
330
17
102
}
330
17
100
AcDbMlineStyle
  2
Standard
 70
     0
  3

 62
   256
 51
90.0
 52
90.0
 71
     2
 49
0.5
 62
   256
  6
BYLAYER
 49
-0.5
 62
   256
  6
BYLAYER
  0
ACDBPLACEHOLDER
  5
F
102
{ACAD_REACTORS
330
E
102
}
330
E
  0
SCALE
  5
48
102
{ACAD_REACTORS
330
47
102
}
330
47
100
AcDbScale
 70
     0
300
1:1
140
1.0
141
1.0
290
     1
  0
SCALE
  5
49
102
{ACAD_REACTORS
330
47
102
}
330
47
100
AcDbScale
 70
     0
300
1:2
140
1.0
141
2.0
290
     0
  0
SCALE
  5
4A
102
{ACAD_REACTORS
330
47
102
}
330
47
100
AcDbScale
 70
     0
300
1:4
140
1.0
141
4.0
290
     0
  0
SCALE
  5
4B
102
{ACAD_REACTORS
330
47
102
}
330
47
100
AcDbScale
 70
     0
300
1:5
140
1.0
141
5.0
290
     0
  0
SCALE
  5
4C
102
{ACAD_REACTORS
330
47
102
}
330
47
100
AcDbScale
 70
     0
300
1:8
140
1.0
141
8.0
290
     0
  0
SCALE
  5
4D
102
{ACAD_REACTORS
330
47
102
}
330
47
100
AcDbScale
 70
     0
300
1:10
140
1.0
141
10.0
290
     0
  0
SCALE
  5
4E
102
{ACAD_REACTORS
330
47
102
}
330
47
100
AcDbScale
 70
     0
300
1:16
140
1.0
141
16.0
290
     0
  0
SCALE
  5
4F
102
{ACAD_REACTORS
330
47
102
}
330
47
100
AcDbScale
 70
     0
300
1:20
140
1.0
141
20.0
290
     0
  0
SCALE
  5
50
102
{ACAD_REACTORS
330
47
102
}
330
47
100
AcDbScale
 70
     0
300
1:30
140
1.0
141
30.0
290
     0
  0
SCALE
  5
51
102
{ACAD_REACTORS
330
47
102
}
330
47
100
AcDbScale
 70
     0
300
1:40
140
1.0
141
40.0
290
     0
  0
SCALE
  5
52
102
{ACAD_REACTORS
330
47
102
}
330
47
100
AcDbScale
 70
     0
300
1:50
140
1.0
141
50.0
290
     0
  0
SCALE
  5
53
102
{ACAD_REACTORS
330
47
102
}
330
47
100
AcDbScale
 70
     0
300
1:100
140
1.0
141
100.0
290
     0
  0
SCALE
  5
54
102
{ACAD_REACTORS
330
47
102
}
330
47
100
AcDbScale
 70
     0
300
2:1
140
2.0
141
1.0
290
     0
  0
SCALE
  5
55
102
{ACAD_REACTORS
330
47
102
}
330
47
100
AcDbScale
 70
     0
300
4:1
140
4.0
141
1.0
290
     0
  0
SCALE
  5
56
102
{ACAD_REACTORS
330
47
102
}
330
47
100
AcDbScale
 70
     0
300
8:1
140
8.0
141
1.0
290
     0
  0
SCALE
  5
57
102
{ACAD_REACTORS
330
47
102
}
330
47
100
AcDbScale
 70
     0
300
10:1
140
10.0
141
1.0
290
     0
  0
SCALE
  5
58
102
{ACAD_REACTORS
330
47
102
}
330
47
100
AcDbScale
 70
     0
300
100:1
140
100.0
141
1.0
290
     0
  0
SCALE
  5
59
102
{ACAD_REACTORS
330
47
102
}
330
47
100
AcDbScale
 70
     0
300
1/128" = 1'-0"
140
0.0078125
141
12.0
290
     0
  0
SCALE
  5
5A
102
{ACAD_REACTORS
330
47
102
}
330
47
100
AcDbScale
 70
     0
300
1/64" = 1'-0"
140
0.015625
141
12.0
290
     0
  0
SCALE
  5
5B
102
{ACAD_REACTORS
330
47
102
}
330
47
100
AcDbScale
 70
     0
300
1/32" = 1'-0"
140
0.03125
141
12.0
290
     0
  0
SCALE
  5
5C
102
{ACAD_REACTORS
330
47
102
}
330
47
100
AcDbScale
 70
     0
300
1/16" = 1'-0"
140
0.0625
141
12.0
290
     0
  0
SCALE
  5
5D
102
{ACAD_REACTORS
330
47
102
}
330
47
100
AcDbScale
 70
     0
300
3/32" = 1'-0"
140
0.09375
141
12.0
290
     0
  0
SCALE
  5
5E
102
{ACAD_REACTORS
330
47
102
}
330
47
100
AcDbScale
 70
     0
300
1/8" = 1'-0"
140
0.125
141
12.0
290
     0
  0
SCALE
  5
5F
102
{ACAD_REACTORS
330
47
102
}
330
47
100
AcDbScale
 70
     0
300
3/16" = 1'-0"
140
0.1875
141
12.0
290
     0
  0
SCALE
  5
60
102
{ACAD_REACTORS
330
47
102
}
330
47
100
AcDbScale
 70
     0
300
1/4" = 1'-0"
140
0.25
141
12.0
290
     0
  0
SCALE
  5
61
102
{ACAD_REACTORS
330
47
102
}
330
47
100
AcDbScale
 70
     0
300
3/8" = 1'-0"
140
0.375
141
12.0
290
     0
  0
SCALE
  5
62
102
{ACAD_REACTORS
330
47
102
}
330
47
100
AcDbScale
 70
     0
300
1/2" = 1'-0"
140
0.5
141
12.0
290
     0
  0
SCALE
  5
63
102
{ACAD_REACTORS
330
47
102
}
330
47
100
AcDbScale
 70
     0
300
3/4" = 1'-0"
140
0.75
141
12.0
290
     0
  0
SCALE
  5
64
102
{ACAD_REACTORS
330
47
102
}
330
47
100
AcDbScale
 70
     0
300
1" = 1'-0"
140
1.0
141
12.0
290
     0
  0
SCALE
  5
65
102
{ACAD_REACTORS
330
47
102
}
330
47
100
AcDbScale
 70
     0
300
1-1/2" = 1'-0"
140
1.5
141
12.0
290
     0
  0
SCALE
  5
66
102
{ACAD_REACTORS
330
47
102
}
330
47
100
AcDbScale
 70
     0
300
3" = 1'-0"
140
3.0
141
12.0
290
     0
  0
SCALE
  5
67
102
{ACAD_REACTORS
330
47
102
}
330
47
100
AcDbScale
 70
     0
300
6" = 1'-0"
140
6.0
141
12.0
290
     0
  0
SCALE
  5
68
102
{ACAD_REACTORS
330
47
102
}
330
47
100
AcDbScale
 70
     0
300
1'-0" = 1'-0"
140
12.0
141
12.0
290
     0
  0
ENDSEC
  0
EOF
